ISO-10303-21;
HEADER;
FILE_DESCRIPTION (( 'STEP AP203' ),
    '1' );
FILE_NAME ('BK7-BPBSC-12.7-650-900.STEP',
    '2021-01-05T02:10:47',
    ( '' ),
    ( '' ),
    'SwSTEP 2.0',
    'SolidWorks 2020',
    '' );
FILE_SCHEMA (( 'CONFIG_CONTROL_DESIGN' ));
ENDSEC;

DATA;
#1 = DIRECTION ( 'NONE',  ( 0.000000000000000000, 0.000000000000000000, -1.000000000000000000 ) ) ;
#2 = CARTESIAN_POINT ( 'NONE',  ( 6.349999999999996980, 6.349999999999996980, 6.349999999999999645 ) ) ;
#3 = ORIENTED_EDGE ( 'NONE', *, *, #102, .T. ) ;
#4 = DIRECTION ( 'NONE',  ( 0.000000000000000000, 0.000000000000000000, -1.000000000000000000 ) ) ;
#5 = DATE_AND_TIME ( #297, #43 ) ;
#6 = DIRECTION ( 'NONE',  ( -2.903408047666378392E-16, -1.000000000000000000, 0.000000000000000000 ) ) ;
#7 = DATE_TIME_ROLE ( 'classification_date' ) ;
#8 = PLANE ( 'NONE',  #95 ) ;
#9 = DIRECTION ( 'NONE',  ( 0.000000000000000000, 0.000000000000000000, -1.000000000000000000 ) ) ;
#10 = AXIS2_PLACEMENT_3D ( 'NONE', #2, #81, #63 ) ;
#11 = CARTESIAN_POINT ( 'NONE',  ( -6.350000000000002309, 6.350000000000001421, -6.349999999999999645 ) ) ;
#12 = VECTOR ( 'NONE', #144, 1000.000000000000114 ) ;
#13 = FACE_OUTER_BOUND ( 'NONE', #70, .T. ) ;
#14 = VERTEX_POINT ( 'NONE', #270 ) ;
#15 = ADVANCED_FACE ( 'NONE', ( #47 ), #51, .T. ) ;
#16 = ORIENTED_EDGE ( 'NONE', *, *, #233, .F. ) ;
#17 = EDGE_LOOP ( 'NONE', ( #171, #213, #195, #82 ) ) ;
#18 = ORIENTED_EDGE ( 'NONE', *, *, #243, .T. ) ;
#19 = DIRECTION ( 'NONE',  ( -6.829619984160658046E-17, 1.000000000000000000, -0.000000000000000000 ) ) ;
#20 = EDGE_CURVE ( 'NONE', #197, #14, #292, .T. ) ;
#21 = DIRECTION ( 'NONE',  ( 0.000000000000000000, 1.000000000000000000, 0.000000000000000000 ) ) ;
#22 = CARTESIAN_POINT ( 'NONE',  ( 6.349999999999996980, 6.349999999999996980, 6.349999999999999645 ) ) ;
#23 = AXIS2_PLACEMENT_3D ( 'NONE', #150, #245, #41 ) ;
#24 = PRODUCT_DEFINITION ( 'UNKNOWN', '', #230, #93 ) ;
#25 = LINE ( 'NONE', #199, #92 ) ;
#26 = ADVANCED_FACE ( 'NONE', ( #13 ), #246, .F. ) ;
#27 = VERTEX_POINT ( 'NONE', #115 ) ;
#28 = CARTESIAN_POINT ( 'NONE',  ( -6.349999999999998757, -6.349999999999997868, 6.349999999999999645 ) ) ;
#29 = APPROVAL_DATE_TIME ( #257, #170 ) ;
#30 = DIRECTION ( 'NONE',  ( 0.000000000000000000, 0.000000000000000000, 1.000000000000000000 ) ) ;
#31 = CLOSED_SHELL ( 'NONE', ( #168, #282, #223, #321, #108 ) ) ;
#32 = CARTESIAN_POINT ( 'NONE',  ( 6.349999999999998757, 6.349999999999998757, -6.349999999999999645 ) ) ;
#33 = AXIS2_PLACEMENT_3D ( 'NONE', #206, #6, #256 ) ;
#34 = APPLICATION_CONTEXT ( 'configuration controlled 3d designs of mechanical parts and assemblies' ) ;
#35 = DIRECTION ( 'NONE',  ( -2.220446049250312588E-16, 1.000000000000000000, 0.000000000000000000 ) ) ;
#36 = EDGE_CURVE ( 'NONE', #27, #14, #107, .T. ) ;
#37 = UNCERTAINTY_MEASURE_WITH_UNIT (LENGTH_MEASURE( 1.000000000000000082E-05 ), #309, 'distance_accuracy_value', 'NONE');
#38 = LINE ( 'NONE', #32, #12 ) ;
#39 = VERTEX_POINT ( 'NONE', #200 ) ;
#40 = APPROVAL ( #231, 'UNSPECIFIED' ) ;
#41 = DIRECTION ( 'NONE',  ( 1.000000000000000000, 0.000000000000000000, 0.000000000000000000 ) ) ;
#42 = PERSON ( 'UNSPECIFIED', 'UNSPECIFIED', 'UNSPECIFIED', ('UNSPECIFIED'), ('UNSPECIFIED'), ('UNSPECIFIED') ) ;
#43 = LOCAL_TIME ( 10, 10, 47.00000000000000000, #140 ) ;
#44 = ORIENTED_EDGE ( 'NONE', *, *, #119, .T. ) ;
#45 = APPLICATION_CONTEXT ( 'configuration controlled 3d designs of mechanical parts and assemblies' ) ;
#46 = CC_DESIGN_PERSON_AND_ORGANIZATION_ASSIGNMENT ( #304, #80, ( #230 ) ) ;
#47 = FACE_OUTER_BOUND ( 'NONE', #214, .T. ) ;
#48 = VECTOR ( 'NONE', #146, 999.9999999999998863 ) ;
#49 = ORIENTED_EDGE ( 'NONE', *, *, #20, .T. ) ;
#50 = EDGE_CURVE ( 'NONE', #27, #182, #131, .T. ) ;
#51 = PLANE ( 'NONE',  #23 ) ;
#52 = DIRECTION ( 'NONE',  ( -0.000000000000000000, -0.000000000000000000, -1.000000000000000000 ) ) ;
#53 = CARTESIAN_POINT ( 'NONE',  ( 6.349999999999999645, -6.350000000000000533, -6.349999999999999645 ) ) ;
#54 = CARTESIAN_POINT ( 'NONE',  ( 6.349999999999998757, 6.349999999999998757, 6.349999999999999645 ) ) ;
#55 = CARTESIAN_POINT ( 'NONE',  ( 6.349999999999998757, 6.349999999999998757, -6.349999999999999645 ) ) ;
#56 = EDGE_CURVE ( 'NONE', #217, #197, #248, .T. ) ;
#57 = ORIENTED_EDGE ( 'NONE', *, *, #265, .F. ) ;
#58 = APPLICATION_PROTOCOL_DEFINITION ( 'international standard', 'config_control_design', 1994, #45 ) ;
#59 = ORGANIZATION ( 'UNSPECIFIED', 'UNSPECIFIED', '' ) ;
#60 = LINE ( 'NONE', #66, #196 ) ;
#61 = ORIENTED_EDGE ( 'NONE', *, *, #88, .T. ) ;
#62 = CALENDAR_DATE ( 2021, 5, 1 ) ;
#63 = DIRECTION ( 'NONE',  ( 0.7071067811865475727, 0.7071067811865475727, 0.000000000000000000 ) ) ;
#64 = VECTOR ( 'NONE', #154, 1000.000000000000000 ) ;
#65 = APPROVAL_DATE_TIME ( #5, #40 ) ;
#66 = CARTESIAN_POINT ( 'NONE',  ( 6.349999999999996980, 6.349999999999996980, 6.349999999999999645 ) ) ;
#67 = PRODUCT_RELATED_PRODUCT_CATEGORY ( 'detail', '', ( #175 ) ) ;
#68 = ORIENTED_EDGE ( 'NONE', *, *, #56, .F. ) ;
#69 = EDGE_LOOP ( 'NONE', ( #101, #241, #169 ) ) ;
#70 = EDGE_LOOP ( 'NONE', ( #18, #242, #16, #290 ) ) ;
#71 = VECTOR ( 'NONE', #176, 1000.000000000000000 ) ;
#72 = EDGE_LOOP ( 'NONE', ( #68, #167, #127, #192 ) ) ;
#73 = CARTESIAN_POINT ( 'NONE',  ( 6.349999999999996980, 6.349999999999996980, -6.349999999999999645 ) ) ;
#74 = DIRECTION ( 'NONE',  ( 0.7071067811865474617, 0.7071067811865474617, 0.000000000000000000 ) ) ;
#75 = ADVANCED_FACE ( 'NONE', ( #174 ), #152, .F. ) ;
#76 = VECTOR ( 'NONE', #1, 1000.000000000000000 ) ;
#77 = DIRECTION ( 'NONE',  ( -0.000000000000000000, -0.000000000000000000, -1.000000000000000000 ) ) ;
#78 = CC_DESIGN_PERSON_AND_ORGANIZATION_ASSIGNMENT ( #253, #284, ( #175 ) ) ;
#79 = PLANE ( 'NONE',  #157 ) ;
#80 = PERSON_AND_ORGANIZATION_ROLE ( 'design_supplier' ) ;
#81 = DIRECTION ( 'NONE',  ( -0.7071067811865475727, 0.7071067811865475727, 0.000000000000000000 ) ) ;
#82 = ORIENTED_EDGE ( 'NONE', *, *, #244, .T. ) ;
#83 = PERSON_AND_ORGANIZATION ( #42, #59 ) ;
#84 = LINE ( 'NONE', #87, #198 ) ;
#85 = COORDINATED_UNIVERSAL_TIME_OFFSET ( 8, 0, .AHEAD. ) ;
#86 = SECURITY_CLASSIFICATION ( '', '', #185 ) ;
#87 = CARTESIAN_POINT ( 'NONE',  ( -6.349999999999999645, -6.350000000000000533, 6.349999999999999645 ) ) ;
#88 = EDGE_CURVE ( 'NONE', #139, #39, #249, .T. ) ;
#89 = PERSON_AND_ORGANIZATION ( #42, #59 ) ;
#90 = MECHANICAL_CONTEXT ( 'NONE', #34, 'mechanical' ) ;
#91 = CARTESIAN_POINT ( 'NONE',  ( 6.349999999999998757, 6.349999999999998757, 6.349999999999999645 ) ) ;
#92 = VECTOR ( 'NONE', #52, 1000.000000000000000 ) ;
#93 = DESIGN_CONTEXT ( 'detailed design', #45, 'design' ) ;
#94 = CARTESIAN_POINT ( 'NONE',  ( -6.349999999999999645, -6.350000000000000533, 6.349999999999999645 ) ) ;
#95 = AXIS2_PLACEMENT_3D ( 'NONE', #28, #123, #30 ) ;
#96 = EDGE_CURVE ( 'NONE', #216, #104, #136, .T. ) ;
#97 =( NAMED_UNIT ( * ) PLANE_ANGLE_UNIT ( ) SI_UNIT ( $, .RADIAN. ) );
#98 = ORIENTED_EDGE ( 'NONE', *, *, #88, .F. ) ;
#99 = ORIENTED_EDGE ( 'NONE', *, *, #243, .F. ) ;
#100 =( GEOMETRIC_REPRESENTATION_CONTEXT ( 3 ) GLOBAL_UNCERTAINTY_ASSIGNED_CONTEXT ( ( #37 ) ) GLOBAL_UNIT_ASSIGNED_CONTEXT ( ( #309, #97, #166 ) ) REPRESENTATION_CONTEXT ( 'NONE', 'WORKASPACE' ) );
#101 = ORIENTED_EDGE ( 'NONE', *, *, #102, .F. ) ;
#102 = EDGE_CURVE ( 'NONE', #288, #27, #134, .T. ) ;
#103 = EDGE_CURVE ( 'NONE', #216, #139, #25, .T. ) ;
#104 = VERTEX_POINT ( 'NONE', #317 ) ;
#105 = ORIENTED_EDGE ( 'NONE', *, *, #238, .T. ) ;
#106 = APPROVAL_PERSON_ORGANIZATION ( #89, #40, #305 ) ;
#107 = LINE ( 'NONE', #299, #76 ) ;
#108 = ADVANCED_FACE ( 'NONE', ( #251 ), #221, .F. ) ;
#109 = LINE ( 'NONE', #111, #210 ) ;
#110 = VECTOR ( 'NONE', #19, 1000.000000000000000 ) ;
#111 = CARTESIAN_POINT ( 'NONE',  ( -6.349999999999999645, -6.350000000000000533, 6.349999999999999645 ) ) ;
#112 = DIRECTION ( 'NONE',  ( 1.000000000000000000, 0.000000000000000000, 0.000000000000000000 ) ) ;
#113 = MANIFOLD_SOLID_BREP ( 'Í¹Ì¨-À', #291 ) ;
#114 = CALENDAR_DATE ( 2021, 5, 1 ) ;
#115 = CARTESIAN_POINT ( 'NONE',  ( -6.349999999999998757, -6.349999999999997868, 6.349999999999999645 ) ) ;
#116 = APPROVAL_ROLE ( '' ) ;
#117 = DATE_TIME_ROLE ( 'creation_date' ) ;
#118 = PLANE ( 'NONE',  #143 ) ;
#119 = EDGE_CURVE ( 'NONE', #269, #125, #109, .T. ) ;
#120 = DATE_AND_TIME ( #259, #218 ) ;
#121 = CARTESIAN_POINT ( 'NONE',  ( 6.349999999999996980, 6.349999999999996980, 6.349999999999999645 ) ) ;
#122 = APPLICATION_PROTOCOL_DEFINITION ( 'international standard', 'config_control_design', 1994, #34 ) ;
#123 = DIRECTION ( 'NONE',  ( 1.000000000000000000, -2.220446049250312588E-16, 0.000000000000000000 ) ) ;
#124 = APPROVAL_PERSON_ORGANIZATION ( #137, #170, #224 ) ;
#125 = VERTEX_POINT ( 'NONE', #294 ) ;
#126 = EDGE_LOOP ( 'NONE', ( #99, #98, #172 ) ) ;
#127 = ORIENTED_EDGE ( 'NONE', *, *, #209, .T. ) ;
#128 = AXIS2_PLACEMENT_3D ( 'NONE', #208, #262, #141 ) ;
#129 = EDGE_LOOP ( 'NONE', ( #303, #315, #3, #311 ) ) ;
#130 = EDGE_CURVE ( 'NONE', #14, #217, #201, .T. ) ;
#131 = LINE ( 'NONE', #204, #64 ) ;
#132 = CC_DESIGN_SECURITY_CLASSIFICATION ( #86, ( #230 ) ) ;
#133 = DIRECTION ( 'NONE',  ( 1.000000000000000000, -2.903408047666378392E-16, 0.000000000000000000 ) ) ;
#134 = LINE ( 'NONE', #22, #189 ) ;
#135 = AXIS2_PLACEMENT_3D ( 'NONE', #173, #293, #320 ) ;
#136 = LINE ( 'NONE', #273, #149 ) ;
#137 = PERSON_AND_ORGANIZATION ( #42, #59 ) ;
#138 = DIRECTION ( 'NONE',  ( -0.000000000000000000, -0.000000000000000000, -1.000000000000000000 ) ) ;
#139 = VERTEX_POINT ( 'NONE', #53 ) ;
#140 = COORDINATED_UNIVERSAL_TIME_OFFSET ( 8, 0, .AHEAD. ) ;
#141 = DIRECTION ( 'NONE',  ( 1.000000000000000000, 0.000000000000000000, 0.000000000000000000 ) ) ;
#142 = PLANE ( 'NONE',  #191 ) ;
#143 = AXIS2_PLACEMENT_3D ( 'NONE', #164, #263, #35 ) ;
#144 = DIRECTION ( 'NONE',  ( -0.7071067811865474617, -0.7071067811865474617, 0.000000000000000000 ) ) ;
#145 = CALENDAR_DATE ( 2021, 5, 1 ) ;
#146 = DIRECTION ( 'NONE',  ( -0.7071067811865475727, -0.7071067811865475727, 0.000000000000000000 ) ) ;
#147 = ORIENTED_EDGE ( 'NONE', *, *, #151, .F. ) ;
#148 = EDGE_LOOP ( 'NONE', ( #49, #310, #226 ) ) ;
#149 = VECTOR ( 'NONE', #155, 1000.000000000000000 ) ;
#150 = CARTESIAN_POINT ( 'NONE',  ( 0.000000000000000000, 0.000000000000000000, 6.349999999999999645 ) ) ;
#151 = EDGE_CURVE ( 'NONE', #104, #39, #295, .T. ) ;
#152 = PLANE ( 'NONE',  #308 ) ;
#153 = CARTESIAN_POINT ( 'NONE',  ( -6.349999999999998757, -6.349999999999997868, -6.349999999999999645 ) ) ;
#154 = DIRECTION ( 'NONE',  ( -2.220446049250312588E-16, 1.000000000000000000, 0.000000000000000000 ) ) ;
#155 = DIRECTION ( 'NONE',  ( -6.829619984160658046E-17, 1.000000000000000000, -0.000000000000000000 ) ) ;
#156 = ADVANCED_FACE ( 'NONE', ( #177 ), #79, .F. ) ;
#157 = AXIS2_PLACEMENT_3D ( 'NONE', #274, #222, #112 ) ;
#158 = LOCAL_TIME ( 10, 10, 47.00000000000000000, #205 ) ;
#159 = APPROVAL_STATUS ( 'not_yet_approved' ) ;
#160 = LINE ( 'NONE', #229, #267 ) ;
#161 = DATE_AND_TIME ( #62, #313 ) ;
#162 = DIRECTION ( 'NONE',  ( 1.000000000000000000, -2.903408047666378392E-16, 0.000000000000000000 ) ) ;
#163 = SHAPE_DEFINITION_REPRESENTATION ( #275, #314 ) ;
#164 = CARTESIAN_POINT ( 'NONE',  ( 0.000000000000000000, 0.000000000000000000, 6.349999999999999645 ) ) ;
#165 = DIRECTION ( 'NONE',  ( 1.000000000000000000, 0.000000000000000000, 0.000000000000000000 ) ) ;
#166 =( NAMED_UNIT ( * ) SI_UNIT ( $, .STERADIAN. ) SOLID_ANGLE_UNIT ( ) );
#167 = ORIENTED_EDGE ( 'NONE', *, *, #244, .F. ) ;
#168 = ADVANCED_FACE ( 'NONE', ( #202 ), #298, .F. ) ;
#169 = ORIENTED_EDGE ( 'NONE', *, *, #50, .F. ) ;
#170 = APPROVAL ( #159, 'UNSPECIFIED' ) ;
#171 = ORIENTED_EDGE ( 'NONE', *, *, #130, .F. ) ;
#172 = ORIENTED_EDGE ( 'NONE', *, *, #238, .F. ) ;
#173 = CARTESIAN_POINT ( 'NONE',  ( 0.000000000000000000, 0.000000000000000000, -6.349999999999999645 ) ) ;
#174 = FACE_OUTER_BOUND ( 'NONE', #212, .T. ) ;
#175 = PRODUCT ( 'BK7-BPBSC-12.7-650-900', 'BK7-BPBSC-12.7-650-900', '', ( #90 ) ) ;
#176 = DIRECTION ( 'NONE',  ( -2.220446049250312588E-16, 1.000000000000000000, 0.000000000000000000 ) ) ;
#177 = FACE_OUTER_BOUND ( 'NONE', #126, .T. ) ;
#178 = PERSON_AND_ORGANIZATION ( #42, #59 ) ;
#179 = ORIENTED_EDGE ( 'NONE', *, *, #103, .T. ) ;
#180 = APPROVAL_STATUS ( 'not_yet_approved' ) ;
#181 = FACE_OUTER_BOUND ( 'NONE', #17, .T. ) ;
#182 = VERTEX_POINT ( 'NONE', #232 ) ;
#183 = COORDINATED_UNIVERSAL_TIME_OFFSET ( 8, 0, .AHEAD. ) ;
#184 = CARTESIAN_POINT ( 'NONE',  ( 6.349999999999999645, -6.350000000000000533, 6.349999999999999645 ) ) ;
#185 = SECURITY_CLASSIFICATION_LEVEL ( 'unclassified' ) ;
#186 = PLANE ( 'NONE',  #33 ) ;
#187 = APPROVAL_DATE_TIME ( #120, #289 ) ;
#188 = DIRECTION ( 'NONE',  ( -1.000000000000000000, -6.829619984160658046E-17, 0.000000000000000000 ) ) ;
#189 = VECTOR ( 'NONE', #225, 999.9999999999998863 ) ;
#190 = VECTOR ( 'NONE', #260, 1000.000000000000114 ) ;
#191 = AXIS2_PLACEMENT_3D ( 'NONE', #91, #188, #227 ) ;
#192 = ORIENTED_EDGE ( 'NONE', *, *, #307, .T. ) ;
#193 = CC_DESIGN_PERSON_AND_ORGANIZATION_ASSIGNMENT ( #255, #228, ( #24 ) ) ;
#194 = ORIENTED_EDGE ( 'NONE', *, *, #103, .F. ) ;
#195 = ORIENTED_EDGE ( 'NONE', *, *, #50, .T. ) ;
#196 = VECTOR ( 'NONE', #162, 1000.000000000000000 ) ;
#197 = VERTEX_POINT ( 'NONE', #278 ) ;
#198 = VECTOR ( 'NONE', #280, 1000.000000000000000 ) ;
#199 = CARTESIAN_POINT ( 'NONE',  ( 6.349999999999999645, -6.350000000000000533, 6.349999999999999645 ) ) ;
#200 = CARTESIAN_POINT ( 'NONE',  ( 6.349999999999998757, 6.349999999999998757, -6.349999999999999645 ) ) ;
#201 = LINE ( 'NONE', #153, #71 ) ;
#202 = FACE_OUTER_BOUND ( 'NONE', #129, .T. ) ;
#203 = PERSON_AND_ORGANIZATION_ROLE ( 'creator' ) ;
#204 = CARTESIAN_POINT ( 'NONE',  ( -6.349999999999998757, -6.349999999999997868, 6.349999999999999645 ) ) ;
#205 = COORDINATED_UNIVERSAL_TIME_OFFSET ( 8, 0, .AHEAD. ) ;
#206 = CARTESIAN_POINT ( 'NONE',  ( 6.349999999999996980, 6.349999999999996980, 6.349999999999999645 ) ) ;
#207 = PERSON_AND_ORGANIZATION ( #42, #59 ) ;
#208 = CARTESIAN_POINT ( 'NONE',  ( 0.000000000000000000, 0.000000000000000000, 0.000000000000000000 ) ) ;
#209 = EDGE_CURVE ( 'NONE', #182, #288, #60, .T. ) ;
#210 = VECTOR ( 'NONE', #77, 1000.000000000000000 ) ;
#211 = VECTOR ( 'NONE', #165, 1000.000000000000000 ) ;
#212 = EDGE_LOOP ( 'NONE', ( #105, #194, #57, #44 ) ) ;
#213 = ORIENTED_EDGE ( 'NONE', *, *, #36, .F. ) ;
#214 = EDGE_LOOP ( 'NONE', ( #268, #240, #266 ) ) ;
#215 = APPROVAL_PERSON_ORGANIZATION ( #83, #289, #116 ) ;
#216 = VERTEX_POINT ( 'NONE', #184 ) ;
#217 = VERTEX_POINT ( 'NONE', #11 ) ;
#218 = LOCAL_TIME ( 10, 10, 47.00000000000000000, #301 ) ;
#219 = CC_DESIGN_APPROVAL ( #40, ( #230 ) ) ;
#220 = CARTESIAN_POINT ( 'NONE',  ( 6.349999999999996980, 6.349999999999996980, -6.349999999999999645 ) ) ;
#221 = PLANE ( 'NONE',  #135 ) ;
#222 = DIRECTION ( 'NONE',  ( -0.000000000000000000, 0.000000000000000000, 1.000000000000000000 ) ) ;
#223 = ADVANCED_FACE ( 'NONE', ( #306 ), #186, .F. ) ;
#224 = APPROVAL_ROLE ( '' ) ;
#225 = DIRECTION ( 'NONE',  ( -0.7071067811865475727, -0.7071067811865475727, 0.000000000000000000 ) ) ;
#226 = ORIENTED_EDGE ( 'NONE', *, *, #56, .T. ) ;
#227 = DIRECTION ( 'NONE',  ( 6.829619984160658046E-17, -1.000000000000000000, 0.000000000000000000 ) ) ;
#228 = PERSON_AND_ORGANIZATION_ROLE ( 'creator' ) ;
#229 = CARTESIAN_POINT ( 'NONE',  ( 6.349999999999996980, 6.349999999999996980, 6.349999999999999645 ) ) ;
#230 = PRODUCT_DEFINITION_FORMATION_WITH_SPECIFIED_SOURCE ( 'ANY', '', #175, .NOT_KNOWN. ) ;
#231 = APPROVAL_STATUS ( 'not_yet_approved' ) ;
#232 = CARTESIAN_POINT ( 'NONE',  ( -6.350000000000002309, 6.350000000000001421, 6.349999999999999645 ) ) ;
#233 = EDGE_CURVE ( 'NONE', #104, #269, #235, .T. ) ;
#234 = DATE_AND_TIME ( #114, #279 ) ;
#235 = LINE ( 'NONE', #283, #190 ) ;
#236 = CARTESIAN_POINT ( 'NONE',  ( -6.350000000000002309, 6.350000000000001421, 6.349999999999999645 ) ) ;
#237 = EDGE_LOOP ( 'NONE', ( #61, #147, #300, #179 ) ) ;
#238 = EDGE_CURVE ( 'NONE', #125, #139, #302, .T. ) ;
#239 = CC_DESIGN_APPROVAL ( #170, ( #24 ) ) ;
#240 = ORIENTED_EDGE ( 'NONE', *, *, #265, .T. ) ;
#241 = ORIENTED_EDGE ( 'NONE', *, *, #209, .F. ) ;
#242 = ORIENTED_EDGE ( 'NONE', *, *, #119, .F. ) ;
#243 = EDGE_CURVE ( 'NONE', #39, #125, #38, .T. ) ;
#244 = EDGE_CURVE ( 'NONE', #182, #217, #264, .T. ) ;
#245 = DIRECTION ( 'NONE',  ( -0.000000000000000000, 0.000000000000000000, 1.000000000000000000 ) ) ;
#246 = PLANE ( 'NONE',  #277 ) ;
#247 = VECTOR ( 'NONE', #9, 1000.000000000000000 ) ;
#248 = LINE ( 'NONE', #220, #316 ) ;
#249 = LINE ( 'NONE', #55, #110 ) ;
#250 = CC_DESIGN_DATE_AND_TIME_ASSIGNMENT ( #161, #7, ( #86 ) ) ;
#251 = FACE_OUTER_BOUND ( 'NONE', #148, .T. ) ;
#252 = VECTOR ( 'NONE', #138, 1000.000000000000000 ) ;
#253 = PERSON_AND_ORGANIZATION ( #42, #59 ) ;
#254 = DIRECTION ( 'NONE',  ( 0.7071067811865475727, -0.7071067811865475727, 0.000000000000000000 ) ) ;
#255 = PERSON_AND_ORGANIZATION ( #42, #59 ) ;
#256 = DIRECTION ( 'NONE',  ( -1.000000000000000000, 2.903408047666378392E-16, 0.000000000000000000 ) ) ;
#257 = DATE_AND_TIME ( #145, #158 ) ;
#258 = CARTESIAN_POINT ( 'NONE',  ( -6.349999999999999645, -6.350000000000000533, -6.349999999999999645 ) ) ;
#259 = CALENDAR_DATE ( 2021, 5, 1 ) ;
#260 = DIRECTION ( 'NONE',  ( -0.7071067811865474617, -0.7071067811865474617, 0.000000000000000000 ) ) ;
#261 = CC_DESIGN_APPROVAL ( #289, ( #86 ) ) ;
#262 = DIRECTION ( 'NONE',  ( 0.000000000000000000, 0.000000000000000000, 1.000000000000000000 ) ) ;
#263 = DIRECTION ( 'NONE',  ( 0.000000000000000000, 0.000000000000000000, 1.000000000000000000 ) ) ;
#264 = LINE ( 'NONE', #236, #247 ) ;
#265 = EDGE_CURVE ( 'NONE', #269, #216, #84, .T. ) ;
#266 = ORIENTED_EDGE ( 'NONE', *, *, #96, .T. ) ;
#267 = VECTOR ( 'NONE', #4, 1000.000000000000000 ) ;
#268 = ORIENTED_EDGE ( 'NONE', *, *, #233, .T. ) ;
#269 = VERTEX_POINT ( 'NONE', #94 ) ;
#270 = CARTESIAN_POINT ( 'NONE',  ( -6.349999999999998757, -6.349999999999997868, -6.349999999999999645 ) ) ;
#271 = CARTESIAN_POINT ( 'NONE',  ( -6.349999999999999645, -6.350000000000000533, 6.349999999999999645 ) ) ;
#272 = CC_DESIGN_PERSON_AND_ORGANIZATION_ASSIGNMENT ( #207, #203, ( #230 ) ) ;
#273 = CARTESIAN_POINT ( 'NONE',  ( 6.349999999999998757, 6.349999999999998757, 6.349999999999999645 ) ) ;
#274 = CARTESIAN_POINT ( 'NONE',  ( 0.000000000000000000, 0.000000000000000000, -6.349999999999999645 ) ) ;
#275 = PRODUCT_DEFINITION_SHAPE ( 'NONE', 'NONE',  #24 ) ;
#276 = CARTESIAN_POINT ( 'NONE',  ( 6.349999999999998757, 6.349999999999998757, 6.349999999999999645 ) ) ;
#277 = AXIS2_PLACEMENT_3D ( 'NONE', #276, #254, #74 ) ;
#278 = CARTESIAN_POINT ( 'NONE',  ( 6.349999999999996980, 6.349999999999996980, -6.349999999999999645 ) ) ;
#279 = LOCAL_TIME ( 10, 10, 47.00000000000000000, #85 ) ;
#280 = DIRECTION ( 'NONE',  ( 1.000000000000000000, 0.000000000000000000, 0.000000000000000000 ) ) ;
#281 = PERSON_AND_ORGANIZATION_ROLE ( 'classification_officer' ) ;
#282 = ADVANCED_FACE ( 'NONE', ( #181 ), #8, .F. ) ;
#283 = CARTESIAN_POINT ( 'NONE',  ( 6.349999999999998757, 6.349999999999998757, 6.349999999999999645 ) ) ;
#284 = PERSON_AND_ORGANIZATION_ROLE ( 'design_owner' ) ;
#285 = CC_DESIGN_PERSON_AND_ORGANIZATION_ASSIGNMENT ( #178, #281, ( #86 ) ) ;
#286 = FACE_OUTER_BOUND ( 'NONE', #69, .T. ) ;
#287 = FACE_OUTER_BOUND ( 'NONE', #237, .T. ) ;
#288 = VERTEX_POINT ( 'NONE', #121 ) ;
#289 = APPROVAL ( #180, 'UNSPECIFIED' ) ;
#290 = ORIENTED_EDGE ( 'NONE', *, *, #151, .T. ) ;
#291 = CLOSED_SHELL ( 'NONE', ( #26, #75, #296, #15, #156 ) ) ;
#292 = LINE ( 'NONE', #73, #48 ) ;
#293 = DIRECTION ( 'NONE',  ( 0.000000000000000000, 0.000000000000000000, 1.000000000000000000 ) ) ;
#294 = CARTESIAN_POINT ( 'NONE',  ( -6.349999999999999645, -6.350000000000000533, -6.349999999999999645 ) ) ;
#295 = LINE ( 'NONE', #54, #252 ) ;
#296 = ADVANCED_FACE ( 'NONE', ( #287 ), #142, .F. ) ;
#297 = CALENDAR_DATE ( 2021, 5, 1 ) ;
#298 = PLANE ( 'NONE',  #10 ) ;
#299 = CARTESIAN_POINT ( 'NONE',  ( -6.349999999999998757, -6.349999999999997868, 6.349999999999999645 ) ) ;
#300 = ORIENTED_EDGE ( 'NONE', *, *, #96, .F. ) ;
#301 = COORDINATED_UNIVERSAL_TIME_OFFSET ( 8, 0, .AHEAD. ) ;
#302 = LINE ( 'NONE', #258, #211 ) ;
#303 = ORIENTED_EDGE ( 'NONE', *, *, #20, .F. ) ;
#304 = PERSON_AND_ORGANIZATION ( #42, #59 ) ;
#305 = APPROVAL_ROLE ( '' ) ;
#306 = FACE_OUTER_BOUND ( 'NONE', #72, .T. ) ;
#307 = EDGE_CURVE ( 'NONE', #288, #197, #160, .T. ) ;
#308 = AXIS2_PLACEMENT_3D ( 'NONE', #271, #21, #319 ) ;
#309 =( LENGTH_UNIT ( ) NAMED_UNIT ( * ) SI_UNIT ( .MILLI., .METRE. ) );
#310 = ORIENTED_EDGE ( 'NONE', *, *, #130, .T. ) ;
#311 = ORIENTED_EDGE ( 'NONE', *, *, #36, .T. ) ;
#312 = MANIFOLD_SOLID_BREP ( '¾µÏ', #31 ) ;
#313 = LOCAL_TIME ( 10, 10, 47.00000000000000000, #183 ) ;
#314 = ADVANCED_BREP_SHAPE_REPRESENTATION ( 'BK7-BPBSC-12.7-650-900', ( #113, #312, #128 ), #100 ) ;
#315 = ORIENTED_EDGE ( 'NONE', *, *, #307, .F. ) ;
#316 = VECTOR ( 'NONE', #133, 1000.000000000000000 ) ;
#317 = CARTESIAN_POINT ( 'NONE',  ( 6.349999999999998757, 6.349999999999998757, 6.349999999999999645 ) ) ;
#318 = CC_DESIGN_DATE_AND_TIME_ASSIGNMENT ( #234, #117, ( #24 ) ) ;
#319 = DIRECTION ( 'NONE',  ( 0.000000000000000000, -0.000000000000000000, 1.000000000000000000 ) ) ;
#320 = DIRECTION ( 'NONE',  ( -2.220446049250312588E-16, 1.000000000000000000, 0.000000000000000000 ) ) ;
#321 = ADVANCED_FACE ( 'NONE', ( #286 ), #118, .T. ) ;
ENDSEC;
END-ISO-10303-21;
